ISO-10303-21;
HEADER;
/* Generated by software containing ST-Developer
 * from STEP Tools, Inc. (www.steptools.com) 
 */

FILE_DESCRIPTION(
/* description */ (''),
/* implementation_level */ '2;1');

FILE_NAME(
/* name */ 'GZ-RING-1.stp',
/* time_stamp */ '2023-08-24T15:45:30+02:00',
/* author */ ('tomaszw'),
/* organization */ (''),
/* preprocessor_version */ 'ST-DEVELOPER v19.2',
/* originating_system */ 'Autodesk Inventor 2023',
/* authorisation */ '');

FILE_SCHEMA (('AUTOMOTIVE_DESIGN { 1 0 10303 214 3 1 1 }'));
ENDSEC;

DATA;
#10=MECHANICAL_DESIGN_GEOMETRIC_PRESENTATION_REPRESENTATION('',(#13,#14),
#449);
#11=SHAPE_REPRESENTATION_RELATIONSHIP('SRR','None',#456,#12);
#12=ADVANCED_BREP_SHAPE_REPRESENTATION('',(#15,#16),#448);
#13=STYLED_ITEM('',(#465),#15);
#14=STYLED_ITEM('',(#465),#16);
#15=MANIFOLD_SOLID_BREP('Solid1',#236);
#16=MANIFOLD_SOLID_BREP('Solid2',#237);
#17=CYLINDRICAL_SURFACE('',#271,1.621);
#18=CYLINDRICAL_SURFACE('',#273,2.85);
#19=CYLINDRICAL_SURFACE('',#279,12.9);
#20=CYLINDRICAL_SURFACE('',#288,12.5);
#21=CYLINDRICAL_SURFACE('',#290,2.75);
#22=CYLINDRICAL_SURFACE('',#295,6.25);
#23=LINE('',#396,#31);
#24=LINE('',#401,#32);
#25=LINE('',#405,#33);
#26=LINE('',#410,#34);
#27=LINE('',#417,#35);
#28=LINE('',#433,#36);
#29=LINE('',#438,#37);
#30=LINE('',#444,#38);
#31=VECTOR('',#317,6.125);
#32=VECTOR('',#322,0.8105);
#33=VECTOR('',#327,1.621);
#34=VECTOR('',#332,2.85);
#35=VECTOR('',#343,12.9);
#36=VECTOR('',#364,12.5);
#37=VECTOR('',#369,2.75);
#38=VECTOR('',#378,6.25);
#39=CONICAL_SURFACE('',#267,6.125,0.0142035902240121);
#40=CONICAL_SURFACE('',#269,0.8105,1.02974425867665);
#41=FACE_BOUND('',#73,.T.);
#42=FACE_BOUND('',#79,.T.);
#43=FACE_BOUND('',#83,.T.);
#44=FACE_BOUND('',#86,.T.);
#45=FACE_BOUND('',#90,.T.);
#46=FACE_BOUND('',#93,.T.);
#47=PLANE('',#265);
#48=PLANE('',#276);
#49=PLANE('',#277);
#50=PLANE('',#280);
#51=PLANE('',#286);
#52=PLANE('',#293);
#53=PLANE('',#296);
#54=FACE_OUTER_BOUND('',#71,.T.);
#55=FACE_OUTER_BOUND('',#72,.T.);
#56=FACE_OUTER_BOUND('',#74,.T.);
#57=FACE_OUTER_BOUND('',#75,.T.);
#58=FACE_OUTER_BOUND('',#76,.T.);
#59=FACE_OUTER_BOUND('',#77,.T.);
#60=FACE_OUTER_BOUND('',#78,.T.);
#61=FACE_OUTER_BOUND('',#80,.T.);
#62=FACE_OUTER_BOUND('',#81,.T.);
#63=FACE_OUTER_BOUND('',#82,.T.);
#64=FACE_OUTER_BOUND('',#84,.T.);
#65=FACE_OUTER_BOUND('',#85,.T.);
#66=FACE_OUTER_BOUND('',#87,.T.);
#67=FACE_OUTER_BOUND('',#88,.T.);
#68=FACE_OUTER_BOUND('',#89,.T.);
#69=FACE_OUTER_BOUND('',#91,.T.);
#70=FACE_OUTER_BOUND('',#92,.T.);
#71=EDGE_LOOP('',(#161,#162,#163,#164,#165));
#72=EDGE_LOOP('',(#166));
#73=EDGE_LOOP('',(#167));
#74=EDGE_LOOP('',(#168,#169,#170,#171,#172));
#75=EDGE_LOOP('',(#173,#174,#175));
#76=EDGE_LOOP('',(#176,#177,#178,#179));
#77=EDGE_LOOP('',(#180,#181,#182,#183));
#78=EDGE_LOOP('',(#184));
#79=EDGE_LOOP('',(#185));
#80=EDGE_LOOP('',(#186));
#81=EDGE_LOOP('',(#187,#188,#189,#190));
#82=EDGE_LOOP('',(#191));
#83=EDGE_LOOP('',(#192));
#84=EDGE_LOOP('',(#193,#194,#195,#196,#197));
#85=EDGE_LOOP('',(#198));
#86=EDGE_LOOP('',(#199));
#87=EDGE_LOOP('',(#200,#201,#202,#203,#204));
#88=EDGE_LOOP('',(#205,#206,#207,#208));
#89=EDGE_LOOP('',(#209));
#90=EDGE_LOOP('',(#210));
#91=EDGE_LOOP('',(#211,#212,#213,#214));
#92=EDGE_LOOP('',(#215));
#93=EDGE_LOOP('',(#216));
#94=CIRCLE('',#261,7.72884450101936);
#95=CIRCLE('',#262,1.5);
#96=CIRCLE('',#263,6.22899580495708);
#97=CIRCLE('',#264,6.22899580495708);
#98=CIRCLE('',#266,12.9);
#99=CIRCLE('',#268,6.);
#100=CIRCLE('',#270,1.621);
#101=CIRCLE('',#272,1.621);
#102=CIRCLE('',#274,2.85);
#103=CIRCLE('',#275,2.85);
#104=CIRCLE('',#278,12.9);
#105=CIRCLE('',#282,11.);
#106=CIRCLE('',#283,1.5);
#107=CIRCLE('',#284,12.5);
#108=CIRCLE('',#285,12.5);
#109=CIRCLE('',#287,6.25);
#110=CIRCLE('',#289,12.5);
#111=CIRCLE('',#291,2.75);
#112=CIRCLE('',#292,2.75);
#113=CIRCLE('',#294,6.25);
#114=VERTEX_POINT('',#383);
#115=VERTEX_POINT('',#385);
#116=VERTEX_POINT('',#387);
#117=VERTEX_POINT('',#391);
#118=VERTEX_POINT('',#394);
#119=VERTEX_POINT('',#398);
#120=VERTEX_POINT('',#400);
#121=VERTEX_POINT('',#403);
#122=VERTEX_POINT('',#407);
#123=VERTEX_POINT('',#409);
#124=VERTEX_POINT('',#414);
#125=VERTEX_POINT('',#420);
#126=VERTEX_POINT('',#422);
#127=VERTEX_POINT('',#424);
#128=VERTEX_POINT('',#428);
#129=VERTEX_POINT('',#431);
#130=VERTEX_POINT('',#435);
#131=VERTEX_POINT('',#437);
#132=VERTEX_POINT('',#441);
#133=EDGE_CURVE('',#114,#114,#94,.T.);
#134=EDGE_CURVE('',#114,#115,#95,.T.);
#135=EDGE_CURVE('',#115,#116,#96,.T.);
#136=EDGE_CURVE('',#116,#115,#97,.T.);
#137=EDGE_CURVE('',#117,#117,#98,.T.);
#138=EDGE_CURVE('',#118,#118,#99,.T.);
#139=EDGE_CURVE('',#118,#116,#23,.T.);
#140=EDGE_CURVE('',#119,#119,#100,.T.);
#141=EDGE_CURVE('',#119,#120,#24,.T.);
#142=EDGE_CURVE('',#121,#121,#101,.T.);
#143=EDGE_CURVE('',#121,#119,#25,.T.);
#144=EDGE_CURVE('',#122,#122,#102,.T.);
#145=EDGE_CURVE('',#122,#123,#26,.T.);
#146=EDGE_CURVE('',#123,#123,#103,.T.);
#147=EDGE_CURVE('',#124,#124,#104,.T.);
#148=EDGE_CURVE('',#117,#124,#27,.T.);
#149=EDGE_CURVE('',#125,#125,#105,.T.);
#150=EDGE_CURVE('',#125,#126,#106,.T.);
#151=EDGE_CURVE('',#126,#127,#107,.T.);
#152=EDGE_CURVE('',#127,#126,#108,.T.);
#153=EDGE_CURVE('',#128,#128,#109,.T.);
#154=EDGE_CURVE('',#129,#129,#110,.T.);
#155=EDGE_CURVE('',#129,#127,#28,.T.);
#156=EDGE_CURVE('',#130,#130,#111,.T.);
#157=EDGE_CURVE('',#130,#131,#29,.T.);
#158=EDGE_CURVE('',#131,#131,#112,.T.);
#159=EDGE_CURVE('',#132,#132,#113,.T.);
#160=EDGE_CURVE('',#132,#128,#30,.T.);
#161=ORIENTED_EDGE('',*,*,#133,.T.);
#162=ORIENTED_EDGE('',*,*,#134,.T.);
#163=ORIENTED_EDGE('',*,*,#135,.T.);
#164=ORIENTED_EDGE('',*,*,#136,.T.);
#165=ORIENTED_EDGE('',*,*,#134,.F.);
#166=ORIENTED_EDGE('',*,*,#137,.T.);
#167=ORIENTED_EDGE('',*,*,#133,.F.);
#168=ORIENTED_EDGE('',*,*,#138,.F.);
#169=ORIENTED_EDGE('',*,*,#139,.T.);
#170=ORIENTED_EDGE('',*,*,#135,.F.);
#171=ORIENTED_EDGE('',*,*,#136,.F.);
#172=ORIENTED_EDGE('',*,*,#139,.F.);
#173=ORIENTED_EDGE('',*,*,#140,.T.);
#174=ORIENTED_EDGE('',*,*,#141,.T.);
#175=ORIENTED_EDGE('',*,*,#141,.F.);
#176=ORIENTED_EDGE('',*,*,#142,.F.);
#177=ORIENTED_EDGE('',*,*,#143,.T.);
#178=ORIENTED_EDGE('',*,*,#140,.F.);
#179=ORIENTED_EDGE('',*,*,#143,.F.);
#180=ORIENTED_EDGE('',*,*,#144,.F.);
#181=ORIENTED_EDGE('',*,*,#145,.T.);
#182=ORIENTED_EDGE('',*,*,#146,.T.);
#183=ORIENTED_EDGE('',*,*,#145,.F.);
#184=ORIENTED_EDGE('',*,*,#146,.F.);
#185=ORIENTED_EDGE('',*,*,#142,.T.);
#186=ORIENTED_EDGE('',*,*,#147,.F.);
#187=ORIENTED_EDGE('',*,*,#137,.F.);
#188=ORIENTED_EDGE('',*,*,#148,.T.);
#189=ORIENTED_EDGE('',*,*,#147,.T.);
#190=ORIENTED_EDGE('',*,*,#148,.F.);
#191=ORIENTED_EDGE('',*,*,#138,.T.);
#192=ORIENTED_EDGE('',*,*,#144,.T.);
#193=ORIENTED_EDGE('',*,*,#149,.T.);
#194=ORIENTED_EDGE('',*,*,#150,.T.);
#195=ORIENTED_EDGE('',*,*,#151,.T.);
#196=ORIENTED_EDGE('',*,*,#152,.T.);
#197=ORIENTED_EDGE('',*,*,#150,.F.);
#198=ORIENTED_EDGE('',*,*,#149,.F.);
#199=ORIENTED_EDGE('',*,*,#153,.T.);
#200=ORIENTED_EDGE('',*,*,#154,.F.);
#201=ORIENTED_EDGE('',*,*,#155,.T.);
#202=ORIENTED_EDGE('',*,*,#151,.F.);
#203=ORIENTED_EDGE('',*,*,#152,.F.);
#204=ORIENTED_EDGE('',*,*,#155,.F.);
#205=ORIENTED_EDGE('',*,*,#156,.F.);
#206=ORIENTED_EDGE('',*,*,#157,.T.);
#207=ORIENTED_EDGE('',*,*,#158,.T.);
#208=ORIENTED_EDGE('',*,*,#157,.F.);
#209=ORIENTED_EDGE('',*,*,#159,.F.);
#210=ORIENTED_EDGE('',*,*,#158,.F.);
#211=ORIENTED_EDGE('',*,*,#159,.T.);
#212=ORIENTED_EDGE('',*,*,#160,.T.);
#213=ORIENTED_EDGE('',*,*,#153,.F.);
#214=ORIENTED_EDGE('',*,*,#160,.F.);
#215=ORIENTED_EDGE('',*,*,#154,.T.);
#216=ORIENTED_EDGE('',*,*,#156,.T.);
#217=TOROIDAL_SURFACE('',#260,7.72884450101936,1.5);
#218=TOROIDAL_SURFACE('',#281,11.,1.5);
#219=ADVANCED_FACE('',(#54),#217,.F.);
#220=ADVANCED_FACE('',(#55,#41),#47,.T.);
#221=ADVANCED_FACE('',(#56),#39,.T.);
#222=ADVANCED_FACE('',(#57),#40,.F.);
#223=ADVANCED_FACE('',(#58),#17,.F.);
#224=ADVANCED_FACE('',(#59),#18,.F.);
#225=ADVANCED_FACE('',(#60,#42),#48,.T.);
#226=ADVANCED_FACE('',(#61),#49,.T.);
#227=ADVANCED_FACE('',(#62),#19,.T.);
#228=ADVANCED_FACE('',(#63,#43),#50,.T.);
#229=ADVANCED_FACE('',(#64),#218,.T.);
#230=ADVANCED_FACE('',(#65,#44),#51,.F.);
#231=ADVANCED_FACE('',(#66),#20,.T.);
#232=ADVANCED_FACE('',(#67),#21,.F.);
#233=ADVANCED_FACE('',(#68,#45),#52,.F.);
#234=ADVANCED_FACE('',(#69),#22,.F.);
#235=ADVANCED_FACE('',(#70,#46),#53,.T.);
#236=CLOSED_SHELL('',(#219,#220,#221,#222,#223,#224,#225,#226,#227,#228));
#237=CLOSED_SHELL('',(#229,#230,#231,#232,#233,#234,#235));
#238=DERIVED_UNIT_ELEMENT(#241,1.);
#239=DERIVED_UNIT_ELEMENT(#451,-3.);
#240=DIMENSIONAL_EXPONENTS(0.,1.,0.,0.,0.,0.,0.);
#241=(
CONVERSION_BASED_UNIT('gram',#243)
MASS_UNIT()
NAMED_UNIT(#240)
);
#242=(
MASS_UNIT()
NAMED_UNIT(*)
SI_UNIT(.KILO.,.GRAM.)
);
#243=MASS_MEASURE_WITH_UNIT(MASS_MEASURE(0.001),#242);
#244=DERIVED_UNIT((#238,#239));
#245=MEASURE_REPRESENTATION_ITEM('density measure',
POSITIVE_RATIO_MEASURE(1.),#244);
#246=PROPERTY_DEFINITION_REPRESENTATION(#251,#248);
#247=PROPERTY_DEFINITION_REPRESENTATION(#252,#249);
#248=REPRESENTATION('material name',(#250),#448);
#249=REPRESENTATION('density',(#245),#448);
#250=DESCRIPTIVE_REPRESENTATION_ITEM('Generic','Generic');
#251=PROPERTY_DEFINITION('material property','material name',#458);
#252=PROPERTY_DEFINITION('material property','density of part',#458);
#253=DATE_TIME_ROLE('creation_date');
#254=APPLIED_DATE_AND_TIME_ASSIGNMENT(#255,#253,(#458));
#255=DATE_AND_TIME(#256,#257);
#256=CALENDAR_DATE(2023,16,1);
#257=LOCAL_TIME(0,0,0.,#258);
#258=COORDINATED_UNIVERSAL_TIME_OFFSET(0,0,.BEHIND.);
#259=AXIS2_PLACEMENT_3D('',#381,#297,#298);
#260=AXIS2_PLACEMENT_3D('',#382,#299,#300);
#261=AXIS2_PLACEMENT_3D('',#384,#301,#302);
#262=AXIS2_PLACEMENT_3D('',#386,#303,#304);
#263=AXIS2_PLACEMENT_3D('',#388,#305,#306);
#264=AXIS2_PLACEMENT_3D('',#389,#307,#308);
#265=AXIS2_PLACEMENT_3D('',#390,#309,#310);
#266=AXIS2_PLACEMENT_3D('',#392,#311,#312);
#267=AXIS2_PLACEMENT_3D('',#393,#313,#314);
#268=AXIS2_PLACEMENT_3D('',#395,#315,#316);
#269=AXIS2_PLACEMENT_3D('',#397,#318,#319);
#270=AXIS2_PLACEMENT_3D('',#399,#320,#321);
#271=AXIS2_PLACEMENT_3D('',#402,#323,#324);
#272=AXIS2_PLACEMENT_3D('',#404,#325,#326);
#273=AXIS2_PLACEMENT_3D('',#406,#328,#329);
#274=AXIS2_PLACEMENT_3D('',#408,#330,#331);
#275=AXIS2_PLACEMENT_3D('',#411,#333,#334);
#276=AXIS2_PLACEMENT_3D('',#412,#335,#336);
#277=AXIS2_PLACEMENT_3D('',#413,#337,#338);
#278=AXIS2_PLACEMENT_3D('',#415,#339,#340);
#279=AXIS2_PLACEMENT_3D('',#416,#341,#342);
#280=AXIS2_PLACEMENT_3D('',#418,#344,#345);
#281=AXIS2_PLACEMENT_3D('',#419,#346,#347);
#282=AXIS2_PLACEMENT_3D('',#421,#348,#349);
#283=AXIS2_PLACEMENT_3D('',#423,#350,#351);
#284=AXIS2_PLACEMENT_3D('',#425,#352,#353);
#285=AXIS2_PLACEMENT_3D('',#426,#354,#355);
#286=AXIS2_PLACEMENT_3D('',#427,#356,#357);
#287=AXIS2_PLACEMENT_3D('',#429,#358,#359);
#288=AXIS2_PLACEMENT_3D('',#430,#360,#361);
#289=AXIS2_PLACEMENT_3D('',#432,#362,#363);
#290=AXIS2_PLACEMENT_3D('',#434,#365,#366);
#291=AXIS2_PLACEMENT_3D('',#436,#367,#368);
#292=AXIS2_PLACEMENT_3D('',#439,#370,#371);
#293=AXIS2_PLACEMENT_3D('',#440,#372,#373);
#294=AXIS2_PLACEMENT_3D('',#442,#374,#375);
#295=AXIS2_PLACEMENT_3D('',#443,#376,#377);
#296=AXIS2_PLACEMENT_3D('',#445,#379,#380);
#297=DIRECTION('axis',(0.,0.,1.));
#298=DIRECTION('refdir',(1.,0.,0.));
#299=DIRECTION('center_axis',(0.,-1.,0.));
#300=DIRECTION('ref_axis',(0.,0.,-1.));
#301=DIRECTION('center_axis',(0.,-1.,0.));
#302=DIRECTION('ref_axis',(-1.,0.,1.22464679914735E-16));
#303=DIRECTION('center_axis',(-1.,0.,-1.22464679914735E-16));
#304=DIRECTION('ref_axis',(-1.22464679914735E-16,0.,1.));
#305=DIRECTION('center_axis',(0.,1.,0.));
#306=DIRECTION('ref_axis',(-1.,0.,0.));
#307=DIRECTION('center_axis',(0.,1.,0.));
#308=DIRECTION('ref_axis',(-1.,0.,0.));
#309=DIRECTION('center_axis',(0.,-1.,0.));
#310=DIRECTION('ref_axis',(0.,0.,-1.));
#311=DIRECTION('center_axis',(0.,-1.,0.));
#312=DIRECTION('ref_axis',(1.,0.,0.));
#313=DIRECTION('center_axis',(0.,1.,0.));
#314=DIRECTION('ref_axis',(1.,0.,0.));
#315=DIRECTION('center_axis',(0.,-1.,0.));
#316=DIRECTION('ref_axis',(1.,0.,0.));
#317=DIRECTION('',(-0.0142031126521049,0.999899130708189,-1.73937964473295E-18));
#318=DIRECTION('center_axis',(0.,-1.,0.));
#319=DIRECTION('ref_axis',(1.,0.,0.));
#320=DIRECTION('center_axis',(0.,-1.,0.));
#321=DIRECTION('ref_axis',(1.,0.,0.));
#322=DIRECTION('',(0.857167300702112,0.515038074910054,1.04972719113862E-16));
#323=DIRECTION('center_axis',(0.,-1.,0.));
#324=DIRECTION('ref_axis',(1.,0.,0.));
#325=DIRECTION('center_axis',(0.,1.,0.));
#326=DIRECTION('ref_axis',(1.,0.,0.));
#327=DIRECTION('',(0.,1.,0.));
#328=DIRECTION('center_axis',(0.,1.,0.));
#329=DIRECTION('ref_axis',(1.,0.,0.));
#330=DIRECTION('center_axis',(0.,1.,0.));
#331=DIRECTION('ref_axis',(1.,0.,0.));
#332=DIRECTION('',(0.,1.,0.));
#333=DIRECTION('center_axis',(0.,1.,0.));
#334=DIRECTION('ref_axis',(1.,0.,0.));
#335=DIRECTION('center_axis',(0.,-1.,0.));
#336=DIRECTION('ref_axis',(0.,0.,-1.));
#337=DIRECTION('center_axis',(0.,1.,0.));
#338=DIRECTION('ref_axis',(0.,0.,1.));
#339=DIRECTION('center_axis',(0.,-1.,0.));
#340=DIRECTION('ref_axis',(1.,0.,0.));
#341=DIRECTION('center_axis',(0.,-1.,0.));
#342=DIRECTION('ref_axis',(1.,0.,0.));
#343=DIRECTION('',(0.,1.,0.));
#344=DIRECTION('center_axis',(0.,-1.,0.));
#345=DIRECTION('ref_axis',(0.,0.,-1.));
#346=DIRECTION('center_axis',(0.,1.,0.));
#347=DIRECTION('ref_axis',(0.,0.,1.));
#348=DIRECTION('center_axis',(0.,-1.,0.));
#349=DIRECTION('ref_axis',(-1.,0.,1.22464679914735E-16));
#350=DIRECTION('center_axis',(-1.,0.,1.22464679914735E-16));
#351=DIRECTION('ref_axis',(-1.22464679914735E-16,0.,-1.));
#352=DIRECTION('center_axis',(0.,1.,0.));
#353=DIRECTION('ref_axis',(-1.,0.,1.22464679914735E-16));
#354=DIRECTION('center_axis',(0.,1.,0.));
#355=DIRECTION('ref_axis',(-1.,0.,1.22464679914735E-16));
#356=DIRECTION('center_axis',(0.,-1.,0.));
#357=DIRECTION('ref_axis',(0.,0.,-1.));
#358=DIRECTION('center_axis',(0.,-1.,0.));
#359=DIRECTION('ref_axis',(-1.,0.,0.));
#360=DIRECTION('center_axis',(0.,-1.,0.));
#361=DIRECTION('ref_axis',(1.,0.,0.));
#362=DIRECTION('center_axis',(0.,-1.,0.));
#363=DIRECTION('ref_axis',(1.,0.,0.));
#364=DIRECTION('',(0.,1.,0.));
#365=DIRECTION('center_axis',(0.,-1.,0.));
#366=DIRECTION('ref_axis',(-1.,0.,0.));
#367=DIRECTION('center_axis',(0.,1.,0.));
#368=DIRECTION('ref_axis',(-1.,0.,0.));
#369=DIRECTION('',(0.,1.,0.));
#370=DIRECTION('center_axis',(0.,1.,0.));
#371=DIRECTION('ref_axis',(-1.,0.,0.));
#372=DIRECTION('center_axis',(0.,-1.,0.));
#373=DIRECTION('ref_axis',(0.,0.,-1.));
#374=DIRECTION('center_axis',(0.,-1.,0.));
#375=DIRECTION('ref_axis',(-1.,0.,0.));
#376=DIRECTION('center_axis',(0.,-1.,0.));
#377=DIRECTION('ref_axis',(-1.,0.,0.));
#378=DIRECTION('',(0.,1.,0.));
#379=DIRECTION('center_axis',(0.,-1.,0.));
#380=DIRECTION('ref_axis',(0.,0.,-1.));
#381=CARTESIAN_POINT('',(0.,0.,0.));
#382=CARTESIAN_POINT('Origin',(0.,16.1,0.));
#383=CARTESIAN_POINT('',(-9.46510467928098E-16,17.6,7.72884450101936));
#384=CARTESIAN_POINT('Origin',(0.,17.6,0.));
#385=CARTESIAN_POINT('',(-7.62831977444297E-16,16.1213046689782,6.22899580495707));
#386=CARTESIAN_POINT('Origin',(-9.46510467928098E-16,16.1,7.72884450101936));
#387=CARTESIAN_POINT('',(-6.22899580495708,16.1213046689782,-7.62831977444297E-16));
#388=CARTESIAN_POINT('Origin',(0.,16.1213046689782,-7.62831977444297E-16));
#389=CARTESIAN_POINT('Origin',(0.,16.1213046689782,-7.62831977444297E-16));
#390=CARTESIAN_POINT('Origin',(6.25,17.6,0.));
#391=CARTESIAN_POINT('',(-12.9,17.6,-1.57979437090009E-15));
#392=CARTESIAN_POINT('Origin',(0.,17.6,0.));
#393=CARTESIAN_POINT('Origin',(0.,8.8,0.));
#394=CARTESIAN_POINT('',(-6.,0.,-7.34788079488412E-16));
#395=CARTESIAN_POINT('Origin',(0.,0.,0.));
#396=CARTESIAN_POINT('',(-6.125,8.8,-7.50096164477754E-16));
#397=CARTESIAN_POINT('Origin',(0.,10.0869975317218,0.));
#398=CARTESIAN_POINT('',(-1.621,9.6,-1.98515246141786E-16));
#399=CARTESIAN_POINT('Origin',(0.,9.6,0.));
#400=CARTESIAN_POINT('',(0.,10.5739950634437,0.));
#401=CARTESIAN_POINT('',(-0.8105,10.0869975317218,-9.9257623070893E-17));
#402=CARTESIAN_POINT('Origin',(0.,5.1,0.));
#403=CARTESIAN_POINT('',(-1.621,0.6,-1.98515246141786E-16));
#404=CARTESIAN_POINT('Origin',(0.,0.6,0.));
#405=CARTESIAN_POINT('',(-1.621,5.1,-1.98515246141786E-16));
#406=CARTESIAN_POINT('Origin',(0.,0.,0.));
#407=CARTESIAN_POINT('',(-2.85,0.,3.49024337756996E-16));
#408=CARTESIAN_POINT('Origin',(0.,0.,0.));
#409=CARTESIAN_POINT('',(-2.85,0.6,3.49024337756996E-16));
#410=CARTESIAN_POINT('',(-2.85,0.,3.49024337756996E-16));
#411=CARTESIAN_POINT('Origin',(0.,0.6,0.));
#412=CARTESIAN_POINT('Origin',(0.,0.6,0.));
#413=CARTESIAN_POINT('Origin',(12.9,28.5,0.));
#414=CARTESIAN_POINT('',(-12.9,28.5,-1.57979437090009E-15));
#415=CARTESIAN_POINT('Origin',(0.,28.5,0.));
#416=CARTESIAN_POINT('Origin',(0.,23.05,0.));
#417=CARTESIAN_POINT('',(-12.9,23.05,-1.57979437090009E-15));
#418=CARTESIAN_POINT('Origin',(0.,0.,0.));
#419=CARTESIAN_POINT('Origin',(0.,0.5,0.));
#420=CARTESIAN_POINT('',(-1.34711147906209E-15,2.,-11.));
#421=CARTESIAN_POINT('Origin',(0.,2.,0.));
#422=CARTESIAN_POINT('',(-1.53080849893419E-15,0.5,-12.5));
#423=CARTESIAN_POINT('Origin',(-1.34711147906209E-15,0.5,-11.));
#424=CARTESIAN_POINT('',(-12.5,0.5,-1.53080849893419E-15));
#425=CARTESIAN_POINT('Origin',(0.,0.5,0.));
#426=CARTESIAN_POINT('Origin',(0.,0.5,0.));
#427=CARTESIAN_POINT('Origin',(0.,2.,0.));
#428=CARTESIAN_POINT('',(6.25,2.,7.65404249467096E-16));
#429=CARTESIAN_POINT('Origin',(0.,2.,0.));
#430=CARTESIAN_POINT('Origin',(0.,0.,0.));
#431=CARTESIAN_POINT('',(-12.5,-2.3,-1.53080849893419E-15));
#432=CARTESIAN_POINT('Origin',(0.,-2.3,0.));
#433=CARTESIAN_POINT('',(-12.5,0.,-1.53080849893419E-15));
#434=CARTESIAN_POINT('Origin',(0.,0.,0.));
#435=CARTESIAN_POINT('',(2.75,-2.3,3.36777869765522E-16));
#436=CARTESIAN_POINT('Origin',(0.,-2.3,0.));
#437=CARTESIAN_POINT('',(2.75,0.,3.36777869765522E-16));
#438=CARTESIAN_POINT('',(2.75,0.,3.36777869765522E-16));
#439=CARTESIAN_POINT('Origin',(0.,0.,0.));
#440=CARTESIAN_POINT('Origin',(0.,0.,0.));
#441=CARTESIAN_POINT('',(6.25,0.,0.));
#442=CARTESIAN_POINT('Origin',(0.,0.,0.));
#443=CARTESIAN_POINT('Origin',(0.,0.,0.));
#444=CARTESIAN_POINT('',(6.25,0.,7.65404249467096E-16));
#445=CARTESIAN_POINT('Origin',(0.,-2.3,0.));
#446=UNCERTAINTY_MEASURE_WITH_UNIT(LENGTH_MEASURE(0.01),#450,
'DISTANCE_ACCURACY_VALUE',
'Maximum model space distance between geometric entities at asserted c
onnectivities');
#447=UNCERTAINTY_MEASURE_WITH_UNIT(LENGTH_MEASURE(0.01),#450,
'DISTANCE_ACCURACY_VALUE',
'Maximum model space distance between geometric entities at asserted c
onnectivities');
#448=(
GEOMETRIC_REPRESENTATION_CONTEXT(3)
GLOBAL_UNCERTAINTY_ASSIGNED_CONTEXT((#446))
GLOBAL_UNIT_ASSIGNED_CONTEXT((#450,#452,#453))
REPRESENTATION_CONTEXT('','3D')
);
#449=(
GEOMETRIC_REPRESENTATION_CONTEXT(3)
GLOBAL_UNCERTAINTY_ASSIGNED_CONTEXT((#447))
GLOBAL_UNIT_ASSIGNED_CONTEXT((#450,#452,#453))
REPRESENTATION_CONTEXT('','3D')
);
#450=(
LENGTH_UNIT()
NAMED_UNIT(*)
SI_UNIT(.MILLI.,.METRE.)
);
#451=(
LENGTH_UNIT()
NAMED_UNIT(*)
SI_UNIT(.CENTI.,.METRE.)
);
#452=(
NAMED_UNIT(*)
PLANE_ANGLE_UNIT()
SI_UNIT($,.RADIAN.)
);
#453=(
NAMED_UNIT(*)
SI_UNIT($,.STERADIAN.)
SOLID_ANGLE_UNIT()
);
#454=SHAPE_DEFINITION_REPRESENTATION(#455,#456);
#455=PRODUCT_DEFINITION_SHAPE('',$,#458);
#456=SHAPE_REPRESENTATION('',(#259),#448);
#457=PRODUCT_DEFINITION_CONTEXT('part definition',#462,'design');
#458=PRODUCT_DEFINITION('GZ-RING-1','GZ-RING-1',#459,#457);
#459=PRODUCT_DEFINITION_FORMATION('',$,#464);
#460=PRODUCT_RELATED_PRODUCT_CATEGORY('GZ-RING-1','GZ-RING-1',(#464));
#461=APPLICATION_PROTOCOL_DEFINITION('international standard',
'automotive_design',2009,#462);
#462=APPLICATION_CONTEXT(
'Core Data for Automotive Mechanical Design Process');
#463=PRODUCT_CONTEXT('part definition',#462,'mechanical');
#464=PRODUCT('GZ-RING-1','GZ-RING-1',$,(#463));
#465=PRESENTATION_STYLE_ASSIGNMENT((#466));
#466=SURFACE_STYLE_USAGE(.BOTH.,#469);
#467=SURFACE_STYLE_RENDERING_WITH_PROPERTIES($,#473,(#468));
#468=SURFACE_STYLE_TRANSPARENT(0.);
#469=SURFACE_SIDE_STYLE('',(#470,#467));
#470=SURFACE_STYLE_FILL_AREA(#471);
#471=FILL_AREA_STYLE('',(#472));
#472=FILL_AREA_STYLE_COLOUR('',#473);
#473=COLOUR_RGB('',0.749019607843137,0.749019607843137,0.749019607843137);
ENDSEC;
END-ISO-10303-21;
