ISO-10303-21;
HEADER;
/* Generated by software containing ST-Developer
 * from STEP Tools, Inc. (www.steptools.com) 
 */

FILE_DESCRIPTION(
/* description */ (''),
/* implementation_level */ '2;1');

FILE_NAME(
/* name */ 'NM-RONDA-S180.stp',
/* time_stamp */ '2024-01-10T13:40:43+01:00',
/* author */ ('MarcinS'),
/* organization */ (''),
/* preprocessor_version */ 'ST-DEVELOPER v19.2',
/* originating_system */ 'Autodesk Inventor 2023',
/* authorisation */ '');

FILE_SCHEMA (('AUTOMOTIVE_DESIGN { 1 0 10303 214 3 1 1 }'));
ENDSEC;

DATA;
#10=MECHANICAL_DESIGN_GEOMETRIC_PRESENTATION_REPRESENTATION('',(#21,#22,
#23),#596);
#11=SHAPE_REPRESENTATION_RELATIONSHIP('SRR','None',#603,#12);
#12=ADVANCED_BREP_SHAPE_REPRESENTATION('',(#24,#25,#26),#595);
#13=FACE_BOUND('',#66,.T.);
#14=FACE_BOUND('',#67,.T.);
#15=FACE_BOUND('',#68,.T.);
#16=FACE_BOUND('',#69,.T.);
#17=FACE_BOUND('',#81,.T.);
#18=FACE_BOUND('',#82,.T.);
#19=FACE_BOUND('',#83,.T.);
#20=FACE_BOUND('',#84,.T.);
#21=STYLED_ITEM('',(#613),#24);
#22=STYLED_ITEM('',(#612),#25);
#23=STYLED_ITEM('',(#612),#26);
#24=MANIFOLD_SOLID_BREP('Solid1',#333);
#25=MANIFOLD_SOLID_BREP('Solid2',#334);
#26=MANIFOLD_SOLID_BREP('Solid4',#335);
#27=PLANE('',#361);
#28=PLANE('',#362);
#29=PLANE('',#366);
#30=PLANE('',#367);
#31=PLANE('',#371);
#32=PLANE('',#372);
#33=PLANE('',#382);
#34=PLANE('',#385);
#35=PLANE('',#396);
#36=PLANE('',#397);
#37=FACE_OUTER_BOUND('',#57,.T.);
#38=FACE_OUTER_BOUND('',#58,.T.);
#39=FACE_OUTER_BOUND('',#59,.T.);
#40=FACE_OUTER_BOUND('',#60,.T.);
#41=FACE_OUTER_BOUND('',#61,.T.);
#42=FACE_OUTER_BOUND('',#62,.T.);
#43=FACE_OUTER_BOUND('',#63,.T.);
#44=FACE_OUTER_BOUND('',#64,.T.);
#45=FACE_OUTER_BOUND('',#65,.T.);
#46=FACE_OUTER_BOUND('',#70,.T.);
#47=FACE_OUTER_BOUND('',#71,.T.);
#48=FACE_OUTER_BOUND('',#72,.T.);
#49=FACE_OUTER_BOUND('',#73,.T.);
#50=FACE_OUTER_BOUND('',#74,.T.);
#51=FACE_OUTER_BOUND('',#75,.T.);
#52=FACE_OUTER_BOUND('',#76,.T.);
#53=FACE_OUTER_BOUND('',#77,.T.);
#54=FACE_OUTER_BOUND('',#78,.T.);
#55=FACE_OUTER_BOUND('',#79,.T.);
#56=FACE_OUTER_BOUND('',#80,.T.);
#57=EDGE_LOOP('',(#219,#220,#221,#222));
#58=EDGE_LOOP('',(#223));
#59=EDGE_LOOP('',(#224));
#60=EDGE_LOOP('',(#225,#226,#227,#228));
#61=EDGE_LOOP('',(#229));
#62=EDGE_LOOP('',(#230));
#63=EDGE_LOOP('',(#231,#232,#233,#234));
#64=EDGE_LOOP('',(#235,#236,#237,#238));
#65=EDGE_LOOP('',(#239,#240,#241,#242,#243,#244,#245,#246));
#66=EDGE_LOOP('',(#247));
#67=EDGE_LOOP('',(#248));
#68=EDGE_LOOP('',(#249));
#69=EDGE_LOOP('',(#250));
#70=EDGE_LOOP('',(#251,#252,#253,#254));
#71=EDGE_LOOP('',(#255,#256,#257,#258));
#72=EDGE_LOOP('',(#259,#260,#261,#262));
#73=EDGE_LOOP('',(#263,#264,#265,#266));
#74=EDGE_LOOP('',(#267,#268,#269,#270));
#75=EDGE_LOOP('',(#271,#272,#273,#274));
#76=EDGE_LOOP('',(#275,#276,#277,#278));
#77=EDGE_LOOP('',(#279,#280,#281,#282));
#78=EDGE_LOOP('',(#283,#284,#285,#286));
#79=EDGE_LOOP('',(#287,#288,#289,#290));
#80=EDGE_LOOP('',(#291,#292,#293,#294,#295,#296,#297,#298));
#81=EDGE_LOOP('',(#299));
#82=EDGE_LOOP('',(#300));
#83=EDGE_LOOP('',(#301));
#84=EDGE_LOOP('',(#302));
#85=LINE('',#507,#107);
#86=LINE('',#515,#108);
#87=LINE('',#524,#109);
#88=LINE('',#527,#110);
#89=LINE('',#530,#111);
#90=LINE('',#532,#112);
#91=LINE('',#533,#113);
#92=LINE('',#536,#114);
#93=LINE('',#540,#115);
#94=LINE('',#544,#116);
#95=LINE('',#557,#117);
#96=LINE('',#560,#118);
#97=LINE('',#561,#119);
#98=LINE('',#565,#120);
#99=LINE('',#568,#121);
#100=LINE('',#569,#122);
#101=LINE('',#573,#123);
#102=LINE('',#577,#124);
#103=LINE('',#581,#125);
#104=LINE('',#585,#126);
#105=LINE('',#589,#127);
#106=LINE('',#591,#128);
#107=VECTOR('',#404,12.5);
#108=VECTOR('',#415,12.5);
#109=VECTOR('',#426,10.);
#110=VECTOR('',#429,10.);
#111=VECTOR('',#432,10.);
#112=VECTOR('',#433,10.);
#113=VECTOR('',#434,10.);
#114=VECTOR('',#437,10.);
#115=VECTOR('',#440,10.);
#116=VECTOR('',#443,10.);
#117=VECTOR('',#458,10.);
#118=VECTOR('',#461,10.);
#119=VECTOR('',#462,10.);
#120=VECTOR('',#467,10.);
#121=VECTOR('',#470,10.);
#122=VECTOR('',#471,10.);
#123=VECTOR('',#476,10.);
#124=VECTOR('',#481,3.5);
#125=VECTOR('',#486,3.5);
#126=VECTOR('',#491,3.5);
#127=VECTOR('',#496,3.5);
#128=VECTOR('',#499,10.);
#129=CIRCLE('',#359,12.5);
#130=CIRCLE('',#360,12.5);
#131=CIRCLE('',#364,12.5);
#132=CIRCLE('',#365,12.5);
#133=CIRCLE('',#369,4.);
#134=CIRCLE('',#370,4.);
#135=CIRCLE('',#373,4.);
#136=CIRCLE('',#374,4.);
#137=CIRCLE('',#375,4.);
#138=CIRCLE('',#376,3.5);
#139=CIRCLE('',#377,3.5);
#140=CIRCLE('',#378,3.5);
#141=CIRCLE('',#379,3.5);
#142=CIRCLE('',#381,4.);
#143=CIRCLE('',#384,4.);
#144=CIRCLE('',#387,4.);
#145=CIRCLE('',#389,3.5);
#146=CIRCLE('',#391,3.5);
#147=CIRCLE('',#393,3.5);
#148=CIRCLE('',#395,3.5);
#149=VERTEX_POINT('',#504);
#150=VERTEX_POINT('',#506);
#151=VERTEX_POINT('',#512);
#152=VERTEX_POINT('',#514);
#153=VERTEX_POINT('',#520);
#154=VERTEX_POINT('',#521);
#155=VERTEX_POINT('',#523);
#156=VERTEX_POINT('',#525);
#157=VERTEX_POINT('',#529);
#158=VERTEX_POINT('',#531);
#159=VERTEX_POINT('',#535);
#160=VERTEX_POINT('',#537);
#161=VERTEX_POINT('',#539);
#162=VERTEX_POINT('',#541);
#163=VERTEX_POINT('',#543);
#164=VERTEX_POINT('',#546);
#165=VERTEX_POINT('',#548);
#166=VERTEX_POINT('',#550);
#167=VERTEX_POINT('',#552);
#168=VERTEX_POINT('',#555);
#169=VERTEX_POINT('',#559);
#170=VERTEX_POINT('',#563);
#171=VERTEX_POINT('',#567);
#172=VERTEX_POINT('',#571);
#173=VERTEX_POINT('',#575);
#174=VERTEX_POINT('',#579);
#175=VERTEX_POINT('',#583);
#176=VERTEX_POINT('',#587);
#177=EDGE_CURVE('',#149,#149,#129,.T.);
#178=EDGE_CURVE('',#149,#150,#85,.T.);
#179=EDGE_CURVE('',#150,#150,#130,.T.);
#180=EDGE_CURVE('',#151,#151,#131,.T.);
#181=EDGE_CURVE('',#151,#152,#86,.T.);
#182=EDGE_CURVE('',#152,#152,#132,.T.);
#183=EDGE_CURVE('',#153,#154,#133,.T.);
#184=EDGE_CURVE('',#154,#155,#87,.T.);
#185=EDGE_CURVE('',#155,#156,#134,.T.);
#186=EDGE_CURVE('',#156,#153,#88,.T.);
#187=EDGE_CURVE('',#156,#157,#89,.T.);
#188=EDGE_CURVE('',#158,#157,#90,.T.);
#189=EDGE_CURVE('',#153,#158,#91,.T.);
#190=EDGE_CURVE('',#159,#155,#92,.T.);
#191=EDGE_CURVE('',#160,#159,#135,.T.);
#192=EDGE_CURVE('',#161,#160,#93,.T.);
#193=EDGE_CURVE('',#162,#161,#136,.T.);
#194=EDGE_CURVE('',#163,#162,#94,.T.);
#195=EDGE_CURVE('',#157,#163,#137,.T.);
#196=EDGE_CURVE('',#164,#164,#138,.T.);
#197=EDGE_CURVE('',#165,#165,#139,.T.);
#198=EDGE_CURVE('',#166,#166,#140,.T.);
#199=EDGE_CURVE('',#167,#167,#141,.T.);
#200=EDGE_CURVE('',#168,#158,#142,.T.);
#201=EDGE_CURVE('',#163,#168,#95,.T.);
#202=EDGE_CURVE('',#169,#162,#96,.T.);
#203=EDGE_CURVE('',#168,#169,#97,.T.);
#204=EDGE_CURVE('',#170,#169,#143,.T.);
#205=EDGE_CURVE('',#161,#170,#98,.T.);
#206=EDGE_CURVE('',#171,#160,#99,.T.);
#207=EDGE_CURVE('',#170,#171,#100,.T.);
#208=EDGE_CURVE('',#172,#171,#144,.T.);
#209=EDGE_CURVE('',#159,#172,#101,.T.);
#210=EDGE_CURVE('',#173,#173,#145,.T.);
#211=EDGE_CURVE('',#173,#164,#102,.T.);
#212=EDGE_CURVE('',#174,#174,#146,.T.);
#213=EDGE_CURVE('',#174,#165,#103,.T.);
#214=EDGE_CURVE('',#175,#175,#147,.T.);
#215=EDGE_CURVE('',#175,#166,#104,.T.);
#216=EDGE_CURVE('',#176,#176,#148,.T.);
#217=EDGE_CURVE('',#176,#167,#105,.T.);
#218=EDGE_CURVE('',#172,#154,#106,.T.);
#219=ORIENTED_EDGE('',*,*,#177,.F.);
#220=ORIENTED_EDGE('',*,*,#178,.T.);
#221=ORIENTED_EDGE('',*,*,#179,.T.);
#222=ORIENTED_EDGE('',*,*,#178,.F.);
#223=ORIENTED_EDGE('',*,*,#177,.T.);
#224=ORIENTED_EDGE('',*,*,#179,.F.);
#225=ORIENTED_EDGE('',*,*,#180,.F.);
#226=ORIENTED_EDGE('',*,*,#181,.T.);
#227=ORIENTED_EDGE('',*,*,#182,.T.);
#228=ORIENTED_EDGE('',*,*,#181,.F.);
#229=ORIENTED_EDGE('',*,*,#180,.T.);
#230=ORIENTED_EDGE('',*,*,#182,.F.);
#231=ORIENTED_EDGE('',*,*,#183,.T.);
#232=ORIENTED_EDGE('',*,*,#184,.T.);
#233=ORIENTED_EDGE('',*,*,#185,.T.);
#234=ORIENTED_EDGE('',*,*,#186,.T.);
#235=ORIENTED_EDGE('',*,*,#186,.F.);
#236=ORIENTED_EDGE('',*,*,#187,.T.);
#237=ORIENTED_EDGE('',*,*,#188,.F.);
#238=ORIENTED_EDGE('',*,*,#189,.F.);
#239=ORIENTED_EDGE('',*,*,#185,.F.);
#240=ORIENTED_EDGE('',*,*,#190,.F.);
#241=ORIENTED_EDGE('',*,*,#191,.F.);
#242=ORIENTED_EDGE('',*,*,#192,.F.);
#243=ORIENTED_EDGE('',*,*,#193,.F.);
#244=ORIENTED_EDGE('',*,*,#194,.F.);
#245=ORIENTED_EDGE('',*,*,#195,.F.);
#246=ORIENTED_EDGE('',*,*,#187,.F.);
#247=ORIENTED_EDGE('',*,*,#196,.T.);
#248=ORIENTED_EDGE('',*,*,#197,.T.);
#249=ORIENTED_EDGE('',*,*,#198,.T.);
#250=ORIENTED_EDGE('',*,*,#199,.T.);
#251=ORIENTED_EDGE('',*,*,#200,.T.);
#252=ORIENTED_EDGE('',*,*,#188,.T.);
#253=ORIENTED_EDGE('',*,*,#195,.T.);
#254=ORIENTED_EDGE('',*,*,#201,.T.);
#255=ORIENTED_EDGE('',*,*,#201,.F.);
#256=ORIENTED_EDGE('',*,*,#194,.T.);
#257=ORIENTED_EDGE('',*,*,#202,.F.);
#258=ORIENTED_EDGE('',*,*,#203,.F.);
#259=ORIENTED_EDGE('',*,*,#204,.T.);
#260=ORIENTED_EDGE('',*,*,#202,.T.);
#261=ORIENTED_EDGE('',*,*,#193,.T.);
#262=ORIENTED_EDGE('',*,*,#205,.T.);
#263=ORIENTED_EDGE('',*,*,#205,.F.);
#264=ORIENTED_EDGE('',*,*,#192,.T.);
#265=ORIENTED_EDGE('',*,*,#206,.F.);
#266=ORIENTED_EDGE('',*,*,#207,.F.);
#267=ORIENTED_EDGE('',*,*,#208,.T.);
#268=ORIENTED_EDGE('',*,*,#206,.T.);
#269=ORIENTED_EDGE('',*,*,#191,.T.);
#270=ORIENTED_EDGE('',*,*,#209,.T.);
#271=ORIENTED_EDGE('',*,*,#210,.F.);
#272=ORIENTED_EDGE('',*,*,#211,.T.);
#273=ORIENTED_EDGE('',*,*,#196,.F.);
#274=ORIENTED_EDGE('',*,*,#211,.F.);
#275=ORIENTED_EDGE('',*,*,#212,.F.);
#276=ORIENTED_EDGE('',*,*,#213,.T.);
#277=ORIENTED_EDGE('',*,*,#197,.F.);
#278=ORIENTED_EDGE('',*,*,#213,.F.);
#279=ORIENTED_EDGE('',*,*,#214,.F.);
#280=ORIENTED_EDGE('',*,*,#215,.T.);
#281=ORIENTED_EDGE('',*,*,#198,.F.);
#282=ORIENTED_EDGE('',*,*,#215,.F.);
#283=ORIENTED_EDGE('',*,*,#216,.F.);
#284=ORIENTED_EDGE('',*,*,#217,.T.);
#285=ORIENTED_EDGE('',*,*,#199,.F.);
#286=ORIENTED_EDGE('',*,*,#217,.F.);
#287=ORIENTED_EDGE('',*,*,#184,.F.);
#288=ORIENTED_EDGE('',*,*,#218,.F.);
#289=ORIENTED_EDGE('',*,*,#209,.F.);
#290=ORIENTED_EDGE('',*,*,#190,.T.);
#291=ORIENTED_EDGE('',*,*,#183,.F.);
#292=ORIENTED_EDGE('',*,*,#189,.T.);
#293=ORIENTED_EDGE('',*,*,#200,.F.);
#294=ORIENTED_EDGE('',*,*,#203,.T.);
#295=ORIENTED_EDGE('',*,*,#204,.F.);
#296=ORIENTED_EDGE('',*,*,#207,.T.);
#297=ORIENTED_EDGE('',*,*,#208,.F.);
#298=ORIENTED_EDGE('',*,*,#218,.T.);
#299=ORIENTED_EDGE('',*,*,#210,.T.);
#300=ORIENTED_EDGE('',*,*,#212,.T.);
#301=ORIENTED_EDGE('',*,*,#214,.T.);
#302=ORIENTED_EDGE('',*,*,#216,.T.);
#303=CYLINDRICAL_SURFACE('',#358,12.5);
#304=CYLINDRICAL_SURFACE('',#363,12.5);
#305=CYLINDRICAL_SURFACE('',#368,4.);
#306=CYLINDRICAL_SURFACE('',#380,4.);
#307=CYLINDRICAL_SURFACE('',#383,4.);
#308=CYLINDRICAL_SURFACE('',#386,4.);
#309=CYLINDRICAL_SURFACE('',#388,3.5);
#310=CYLINDRICAL_SURFACE('',#390,3.5);
#311=CYLINDRICAL_SURFACE('',#392,3.5);
#312=CYLINDRICAL_SURFACE('',#394,3.5);
#313=ADVANCED_FACE('',(#37),#303,.T.);
#314=ADVANCED_FACE('',(#38),#27,.T.);
#315=ADVANCED_FACE('',(#39),#28,.F.);
#316=ADVANCED_FACE('',(#40),#304,.T.);
#317=ADVANCED_FACE('',(#41),#29,.T.);
#318=ADVANCED_FACE('',(#42),#30,.F.);
#319=ADVANCED_FACE('',(#43),#305,.T.);
#320=ADVANCED_FACE('',(#44),#31,.T.);
#321=ADVANCED_FACE('',(#45,#13,#14,#15,#16),#32,.F.);
#322=ADVANCED_FACE('',(#46),#306,.T.);
#323=ADVANCED_FACE('',(#47),#33,.T.);
#324=ADVANCED_FACE('',(#48),#307,.T.);
#325=ADVANCED_FACE('',(#49),#34,.T.);
#326=ADVANCED_FACE('',(#50),#308,.T.);
#327=ADVANCED_FACE('',(#51),#309,.F.);
#328=ADVANCED_FACE('',(#52),#310,.F.);
#329=ADVANCED_FACE('',(#53),#311,.F.);
#330=ADVANCED_FACE('',(#54),#312,.F.);
#331=ADVANCED_FACE('',(#55),#35,.T.);
#332=ADVANCED_FACE('',(#56,#17,#18,#19,#20),#36,.T.);
#333=CLOSED_SHELL('',(#313,#314,#315));
#334=CLOSED_SHELL('',(#316,#317,#318));
#335=CLOSED_SHELL('',(#319,#320,#321,#322,#323,#324,#325,#326,#327,#328,
#329,#330,#331,#332));
#336=DERIVED_UNIT_ELEMENT(#339,1.);
#337=DERIVED_UNIT_ELEMENT(#598,-3.);
#338=DIMENSIONAL_EXPONENTS(0.,1.,0.,0.,0.,0.,0.);
#339=(
CONVERSION_BASED_UNIT('gram',#341)
MASS_UNIT()
NAMED_UNIT(#338)
);
#340=(
MASS_UNIT()
NAMED_UNIT(*)
SI_UNIT(.KILO.,.GRAM.)
);
#341=MASS_MEASURE_WITH_UNIT(MASS_MEASURE(0.001),#340);
#342=DERIVED_UNIT((#336,#337));
#343=MEASURE_REPRESENTATION_ITEM('density measure',
POSITIVE_RATIO_MEASURE(19.3),#342);
#344=PROPERTY_DEFINITION_REPRESENTATION(#349,#346);
#345=PROPERTY_DEFINITION_REPRESENTATION(#350,#347);
#346=REPRESENTATION('material name',(#348),#595);
#347=REPRESENTATION('density',(#343),#595);
#348=DESCRIPTIVE_REPRESENTATION_ITEM('Gold','Gold');
#349=PROPERTY_DEFINITION('material property','material name',#605);
#350=PROPERTY_DEFINITION('material property','density of part',#605);
#351=DATE_TIME_ROLE('creation_date');
#352=APPLIED_DATE_AND_TIME_ASSIGNMENT(#353,#351,(#605));
#353=DATE_AND_TIME(#354,#355);
#354=CALENDAR_DATE(2022,17,2);
#355=LOCAL_TIME(0,0,0.,#356);
#356=COORDINATED_UNIVERSAL_TIME_OFFSET(0,0,.BEHIND.);
#357=AXIS2_PLACEMENT_3D('',#502,#398,#399);
#358=AXIS2_PLACEMENT_3D('',#503,#400,#401);
#359=AXIS2_PLACEMENT_3D('',#505,#402,#403);
#360=AXIS2_PLACEMENT_3D('',#508,#405,#406);
#361=AXIS2_PLACEMENT_3D('',#509,#407,#408);
#362=AXIS2_PLACEMENT_3D('',#510,#409,#410);
#363=AXIS2_PLACEMENT_3D('',#511,#411,#412);
#364=AXIS2_PLACEMENT_3D('',#513,#413,#414);
#365=AXIS2_PLACEMENT_3D('',#516,#416,#417);
#366=AXIS2_PLACEMENT_3D('',#517,#418,#419);
#367=AXIS2_PLACEMENT_3D('',#518,#420,#421);
#368=AXIS2_PLACEMENT_3D('',#519,#422,#423);
#369=AXIS2_PLACEMENT_3D('',#522,#424,#425);
#370=AXIS2_PLACEMENT_3D('',#526,#427,#428);
#371=AXIS2_PLACEMENT_3D('',#528,#430,#431);
#372=AXIS2_PLACEMENT_3D('',#534,#435,#436);
#373=AXIS2_PLACEMENT_3D('',#538,#438,#439);
#374=AXIS2_PLACEMENT_3D('',#542,#441,#442);
#375=AXIS2_PLACEMENT_3D('',#545,#444,#445);
#376=AXIS2_PLACEMENT_3D('',#547,#446,#447);
#377=AXIS2_PLACEMENT_3D('',#549,#448,#449);
#378=AXIS2_PLACEMENT_3D('',#551,#450,#451);
#379=AXIS2_PLACEMENT_3D('',#553,#452,#453);
#380=AXIS2_PLACEMENT_3D('',#554,#454,#455);
#381=AXIS2_PLACEMENT_3D('',#556,#456,#457);
#382=AXIS2_PLACEMENT_3D('',#558,#459,#460);
#383=AXIS2_PLACEMENT_3D('',#562,#463,#464);
#384=AXIS2_PLACEMENT_3D('',#564,#465,#466);
#385=AXIS2_PLACEMENT_3D('',#566,#468,#469);
#386=AXIS2_PLACEMENT_3D('',#570,#472,#473);
#387=AXIS2_PLACEMENT_3D('',#572,#474,#475);
#388=AXIS2_PLACEMENT_3D('',#574,#477,#478);
#389=AXIS2_PLACEMENT_3D('',#576,#479,#480);
#390=AXIS2_PLACEMENT_3D('',#578,#482,#483);
#391=AXIS2_PLACEMENT_3D('',#580,#484,#485);
#392=AXIS2_PLACEMENT_3D('',#582,#487,#488);
#393=AXIS2_PLACEMENT_3D('',#584,#489,#490);
#394=AXIS2_PLACEMENT_3D('',#586,#492,#493);
#395=AXIS2_PLACEMENT_3D('',#588,#494,#495);
#396=AXIS2_PLACEMENT_3D('',#590,#497,#498);
#397=AXIS2_PLACEMENT_3D('',#592,#500,#501);
#398=DIRECTION('axis',(0.,0.,1.));
#399=DIRECTION('refdir',(1.,0.,0.));
#400=DIRECTION('center_axis',(0.,1.,0.));
#401=DIRECTION('ref_axis',(-1.,0.,0.));
#402=DIRECTION('center_axis',(0.,1.,0.));
#403=DIRECTION('ref_axis',(-1.,0.,0.));
#404=DIRECTION('',(0.,-1.,0.));
#405=DIRECTION('center_axis',(0.,1.,0.));
#406=DIRECTION('ref_axis',(-1.,0.,0.));
#407=DIRECTION('center_axis',(0.,1.,0.));
#408=DIRECTION('ref_axis',(0.,0.,1.));
#409=DIRECTION('center_axis',(0.,1.,0.));
#410=DIRECTION('ref_axis',(0.,0.,1.));
#411=DIRECTION('center_axis',(0.,1.,0.));
#412=DIRECTION('ref_axis',(1.,0.,0.));
#413=DIRECTION('center_axis',(0.,1.,0.));
#414=DIRECTION('ref_axis',(1.,0.,0.));
#415=DIRECTION('',(0.,-1.,0.));
#416=DIRECTION('center_axis',(0.,1.,0.));
#417=DIRECTION('ref_axis',(1.,0.,0.));
#418=DIRECTION('center_axis',(0.,1.,0.));
#419=DIRECTION('ref_axis',(0.,0.,1.));
#420=DIRECTION('center_axis',(0.,1.,0.));
#421=DIRECTION('ref_axis',(0.,0.,1.));
#422=DIRECTION('center_axis',(0.,1.,0.));
#423=DIRECTION('ref_axis',(0.707106781186547,0.,-0.707106781186548));
#424=DIRECTION('center_axis',(0.,-1.,0.));
#425=DIRECTION('ref_axis',(0.707106781186547,0.,-0.707106781186548));
#426=DIRECTION('',(0.,-1.,0.));
#427=DIRECTION('center_axis',(0.,1.,0.));
#428=DIRECTION('ref_axis',(0.707106781186547,0.,-0.707106781186548));
#429=DIRECTION('',(0.,1.,0.));
#430=DIRECTION('center_axis',(0.,0.,-1.));
#431=DIRECTION('ref_axis',(-1.,0.,0.));
#432=DIRECTION('',(-1.,0.,0.));
#433=DIRECTION('',(0.,-1.,0.));
#434=DIRECTION('',(-1.,0.,0.));
#435=DIRECTION('center_axis',(0.,1.,0.));
#436=DIRECTION('ref_axis',(0.,0.,1.));
#437=DIRECTION('',(-7.40148683083438E-17,0.,-1.));
#438=DIRECTION('center_axis',(0.,1.,0.));
#439=DIRECTION('ref_axis',(0.707106781186547,0.,0.707106781186548));
#440=DIRECTION('',(1.,0.,1.48029736616688E-16));
#441=DIRECTION('center_axis',(0.,1.,0.));
#442=DIRECTION('ref_axis',(-0.707106781186547,0.,0.707106781186548));
#443=DIRECTION('',(1.48029736616688E-16,0.,1.));
#444=DIRECTION('center_axis',(0.,1.,0.));
#445=DIRECTION('ref_axis',(-0.707106781186547,0.,-0.707106781186548));
#446=DIRECTION('center_axis',(0.,1.,0.));
#447=DIRECTION('ref_axis',(1.,0.,0.));
#448=DIRECTION('center_axis',(0.,1.,0.));
#449=DIRECTION('ref_axis',(1.,0.,0.));
#450=DIRECTION('center_axis',(0.,1.,0.));
#451=DIRECTION('ref_axis',(1.,0.,0.));
#452=DIRECTION('center_axis',(0.,1.,0.));
#453=DIRECTION('ref_axis',(1.,0.,0.));
#454=DIRECTION('center_axis',(0.,1.,0.));
#455=DIRECTION('ref_axis',(-0.707106781186547,0.,-0.707106781186548));
#456=DIRECTION('center_axis',(0.,-1.,0.));
#457=DIRECTION('ref_axis',(-0.707106781186547,0.,-0.707106781186548));
#458=DIRECTION('',(0.,1.,0.));
#459=DIRECTION('center_axis',(-1.,0.,1.48029736616688E-16));
#460=DIRECTION('ref_axis',(1.48029736616688E-16,0.,1.));
#461=DIRECTION('',(0.,-1.,0.));
#462=DIRECTION('',(1.48029736616688E-16,0.,1.));
#463=DIRECTION('center_axis',(0.,1.,0.));
#464=DIRECTION('ref_axis',(-0.707106781186547,0.,0.707106781186548));
#465=DIRECTION('center_axis',(0.,-1.,0.));
#466=DIRECTION('ref_axis',(-0.707106781186547,0.,0.707106781186548));
#467=DIRECTION('',(0.,1.,0.));
#468=DIRECTION('center_axis',(-1.48029736616688E-16,0.,1.));
#469=DIRECTION('ref_axis',(1.,0.,1.48029736616688E-16));
#470=DIRECTION('',(0.,-1.,0.));
#471=DIRECTION('',(1.,0.,1.48029736616688E-16));
#472=DIRECTION('center_axis',(0.,1.,0.));
#473=DIRECTION('ref_axis',(0.707106781186547,0.,0.707106781186548));
#474=DIRECTION('center_axis',(0.,-1.,0.));
#475=DIRECTION('ref_axis',(0.707106781186547,0.,0.707106781186548));
#476=DIRECTION('',(0.,1.,0.));
#477=DIRECTION('center_axis',(0.,1.,0.));
#478=DIRECTION('ref_axis',(1.,0.,0.));
#479=DIRECTION('center_axis',(0.,-1.,0.));
#480=DIRECTION('ref_axis',(1.,0.,0.));
#481=DIRECTION('',(0.,-1.,0.));
#482=DIRECTION('center_axis',(0.,1.,0.));
#483=DIRECTION('ref_axis',(1.,0.,0.));
#484=DIRECTION('center_axis',(0.,-1.,0.));
#485=DIRECTION('ref_axis',(1.,0.,0.));
#486=DIRECTION('',(0.,-1.,0.));
#487=DIRECTION('center_axis',(0.,1.,0.));
#488=DIRECTION('ref_axis',(1.,0.,0.));
#489=DIRECTION('center_axis',(0.,-1.,0.));
#490=DIRECTION('ref_axis',(1.,0.,0.));
#491=DIRECTION('',(0.,-1.,0.));
#492=DIRECTION('center_axis',(0.,1.,0.));
#493=DIRECTION('ref_axis',(1.,0.,0.));
#494=DIRECTION('center_axis',(0.,-1.,0.));
#495=DIRECTION('ref_axis',(1.,0.,0.));
#496=DIRECTION('',(0.,-1.,0.));
#497=DIRECTION('center_axis',(1.,0.,-7.40148683083438E-17));
#498=DIRECTION('ref_axis',(-7.40148683083438E-17,0.,-1.));
#499=DIRECTION('',(-7.40148683083438E-17,0.,-1.));
#500=DIRECTION('center_axis',(0.,1.,0.));
#501=DIRECTION('ref_axis',(0.,0.,1.));
#502=CARTESIAN_POINT('',(0.,0.,0.));
#503=CARTESIAN_POINT('Origin',(0.,0.,0.));
#504=CARTESIAN_POINT('',(12.5,5.,-1.53080849893419E-15));
#505=CARTESIAN_POINT('Origin',(0.,5.,0.));
#506=CARTESIAN_POINT('',(12.5,0.,-1.53080849893419E-15));
#507=CARTESIAN_POINT('',(12.5,0.,-1.53080849893419E-15));
#508=CARTESIAN_POINT('Origin',(0.,0.,0.));
#509=CARTESIAN_POINT('Origin',(0.,5.,0.));
#510=CARTESIAN_POINT('Origin',(0.,0.,0.));
#511=CARTESIAN_POINT('Origin',(0.,5.,0.));
#512=CARTESIAN_POINT('',(-12.5,175.,1.53080849893419E-15));
#513=CARTESIAN_POINT('Origin',(0.,175.,0.));
#514=CARTESIAN_POINT('',(-12.5,5.,1.53080849893419E-15));
#515=CARTESIAN_POINT('',(-12.5,5.,1.53080849893419E-15));
#516=CARTESIAN_POINT('Origin',(0.,5.,0.));
#517=CARTESIAN_POINT('Origin',(0.,175.,0.));
#518=CARTESIAN_POINT('Origin',(0.,5.,0.));
#519=CARTESIAN_POINT('Origin',(26.,175.,-26.));
#520=CARTESIAN_POINT('',(26.,180.,-30.));
#521=CARTESIAN_POINT('',(30.,180.,-26.));
#522=CARTESIAN_POINT('Origin',(26.,180.,-26.));
#523=CARTESIAN_POINT('',(30.,175.,-26.));
#524=CARTESIAN_POINT('',(30.,175.,-26.));
#525=CARTESIAN_POINT('',(26.,175.,-30.));
#526=CARTESIAN_POINT('Origin',(26.,175.,-26.));
#527=CARTESIAN_POINT('',(26.,175.,-30.));
#528=CARTESIAN_POINT('Origin',(30.,175.,-30.));
#529=CARTESIAN_POINT('',(-26.,175.,-30.));
#530=CARTESIAN_POINT('',(30.,175.,-30.));
#531=CARTESIAN_POINT('',(-26.,180.,-30.));
#532=CARTESIAN_POINT('',(-26.,175.,-30.));
#533=CARTESIAN_POINT('',(30.,180.,-30.));
#534=CARTESIAN_POINT('Origin',(-4.44089209850063E-15,175.,4.44089209850063E-15));
#535=CARTESIAN_POINT('',(30.,175.,26.));
#536=CARTESIAN_POINT('',(30.,175.,30.));
#537=CARTESIAN_POINT('',(26.,175.,30.));
#538=CARTESIAN_POINT('Origin',(26.,175.,26.));
#539=CARTESIAN_POINT('',(-26.,175.,30.));
#540=CARTESIAN_POINT('',(-30.,175.,30.));
#541=CARTESIAN_POINT('',(-30.,175.,26.));
#542=CARTESIAN_POINT('Origin',(-26.,175.,26.));
#543=CARTESIAN_POINT('',(-30.,175.,-26.));
#544=CARTESIAN_POINT('',(-30.,175.,-30.));
#545=CARTESIAN_POINT('Origin',(-26.,175.,-26.));
#546=CARTESIAN_POINT('',(16.5,175.,20.));
#547=CARTESIAN_POINT('Origin',(20.,175.,20.));
#548=CARTESIAN_POINT('',(-23.5,175.,-20.));
#549=CARTESIAN_POINT('Origin',(-20.,175.,-20.));
#550=CARTESIAN_POINT('',(16.5,175.,-20.));
#551=CARTESIAN_POINT('Origin',(20.,175.,-20.));
#552=CARTESIAN_POINT('',(-23.5,175.,20.));
#553=CARTESIAN_POINT('Origin',(-20.,175.,20.));
#554=CARTESIAN_POINT('Origin',(-26.,175.,-26.));
#555=CARTESIAN_POINT('',(-30.,180.,-26.));
#556=CARTESIAN_POINT('Origin',(-26.,180.,-26.));
#557=CARTESIAN_POINT('',(-30.,175.,-26.));
#558=CARTESIAN_POINT('Origin',(-30.,175.,-30.));
#559=CARTESIAN_POINT('',(-30.,180.,26.));
#560=CARTESIAN_POINT('',(-30.,175.,26.));
#561=CARTESIAN_POINT('',(-30.,180.,-30.));
#562=CARTESIAN_POINT('Origin',(-26.,175.,26.));
#563=CARTESIAN_POINT('',(-26.,180.,30.));
#564=CARTESIAN_POINT('Origin',(-26.,180.,26.));
#565=CARTESIAN_POINT('',(-26.,175.,30.));
#566=CARTESIAN_POINT('Origin',(-30.,175.,30.));
#567=CARTESIAN_POINT('',(26.,180.,30.));
#568=CARTESIAN_POINT('',(26.,175.,30.));
#569=CARTESIAN_POINT('',(-30.,180.,30.));
#570=CARTESIAN_POINT('Origin',(26.,175.,26.));
#571=CARTESIAN_POINT('',(30.,180.,26.));
#572=CARTESIAN_POINT('Origin',(26.,180.,26.));
#573=CARTESIAN_POINT('',(30.,175.,26.));
#574=CARTESIAN_POINT('Origin',(20.,95.,20.));
#575=CARTESIAN_POINT('',(16.5,180.,20.));
#576=CARTESIAN_POINT('Origin',(20.,180.,20.));
#577=CARTESIAN_POINT('',(16.5,95.,20.));
#578=CARTESIAN_POINT('Origin',(-20.,95.,-20.));
#579=CARTESIAN_POINT('',(-23.5,180.,-20.));
#580=CARTESIAN_POINT('Origin',(-20.,180.,-20.));
#581=CARTESIAN_POINT('',(-23.5,95.,-20.));
#582=CARTESIAN_POINT('Origin',(20.,95.,-20.));
#583=CARTESIAN_POINT('',(16.5,180.,-20.));
#584=CARTESIAN_POINT('Origin',(20.,180.,-20.));
#585=CARTESIAN_POINT('',(16.5,95.,-20.));
#586=CARTESIAN_POINT('Origin',(-20.,95.,20.));
#587=CARTESIAN_POINT('',(-23.5,180.,20.));
#588=CARTESIAN_POINT('Origin',(-20.,180.,20.));
#589=CARTESIAN_POINT('',(-23.5,95.,20.));
#590=CARTESIAN_POINT('Origin',(30.,175.,30.));
#591=CARTESIAN_POINT('',(30.,180.,30.));
#592=CARTESIAN_POINT('Origin',(-4.44089209850063E-15,180.,4.44089209850063E-15));
#593=UNCERTAINTY_MEASURE_WITH_UNIT(LENGTH_MEASURE(0.01),#597,
'DISTANCE_ACCURACY_VALUE',
'Maximum model space distance between geometric entities at asserted c
onnectivities');
#594=UNCERTAINTY_MEASURE_WITH_UNIT(LENGTH_MEASURE(0.01),#597,
'DISTANCE_ACCURACY_VALUE',
'Maximum model space distance between geometric entities at asserted c
onnectivities');
#595=(
GEOMETRIC_REPRESENTATION_CONTEXT(3)
GLOBAL_UNCERTAINTY_ASSIGNED_CONTEXT((#593))
GLOBAL_UNIT_ASSIGNED_CONTEXT((#597,#599,#600))
REPRESENTATION_CONTEXT('','3D')
);
#596=(
GEOMETRIC_REPRESENTATION_CONTEXT(3)
GLOBAL_UNCERTAINTY_ASSIGNED_CONTEXT((#594))
GLOBAL_UNIT_ASSIGNED_CONTEXT((#597,#599,#600))
REPRESENTATION_CONTEXT('','3D')
);
#597=(
LENGTH_UNIT()
NAMED_UNIT(*)
SI_UNIT(.MILLI.,.METRE.)
);
#598=(
LENGTH_UNIT()
NAMED_UNIT(*)
SI_UNIT(.CENTI.,.METRE.)
);
#599=(
NAMED_UNIT(*)
PLANE_ANGLE_UNIT()
SI_UNIT($,.RADIAN.)
);
#600=(
NAMED_UNIT(*)
SI_UNIT($,.STERADIAN.)
SOLID_ANGLE_UNIT()
);
#601=SHAPE_DEFINITION_REPRESENTATION(#602,#603);
#602=PRODUCT_DEFINITION_SHAPE('',$,#605);
#603=SHAPE_REPRESENTATION('',(#357),#595);
#604=PRODUCT_DEFINITION_CONTEXT('part definition',#609,'design');
#605=PRODUCT_DEFINITION('NM-RONDA-S-180-18','NM-RONDA-S',#606,#604);
#606=PRODUCT_DEFINITION_FORMATION('',$,#611);
#607=PRODUCT_RELATED_PRODUCT_CATEGORY('NM-RONDA-S','NM-RONDA-S',(#611));
#608=APPLICATION_PROTOCOL_DEFINITION('international standard',
'automotive_design',2009,#609);
#609=APPLICATION_CONTEXT(
'Core Data for Automotive Mechanical Design Process');
#610=PRODUCT_CONTEXT('part definition',#609,'mechanical');
#611=PRODUCT('NM-RONDA-S-180-18','NM-RONDA-S',$,(#610));
#612=PRESENTATION_STYLE_ASSIGNMENT((#614));
#613=PRESENTATION_STYLE_ASSIGNMENT((#615));
#614=SURFACE_STYLE_USAGE(.BOTH.,#620);
#615=SURFACE_STYLE_USAGE(.BOTH.,#621);
#616=SURFACE_STYLE_RENDERING_WITH_PROPERTIES($,#628,(#618));
#617=SURFACE_STYLE_RENDERING_WITH_PROPERTIES($,#629,(#619));
#618=SURFACE_STYLE_TRANSPARENT(0.);
#619=SURFACE_STYLE_TRANSPARENT(0.);
#620=SURFACE_SIDE_STYLE('',(#622,#616));
#621=SURFACE_SIDE_STYLE('',(#623,#617));
#622=SURFACE_STYLE_FILL_AREA(#624);
#623=SURFACE_STYLE_FILL_AREA(#625);
#624=FILL_AREA_STYLE('',(#626));
#625=FILL_AREA_STYLE('',(#627));
#626=FILL_AREA_STYLE_COLOUR('',#628);
#627=FILL_AREA_STYLE_COLOUR('',#629);
#628=COLOUR_RGB('',1.,0.56078431372549,0.184313725490196);
#629=COLOUR_RGB('',0.0196078431372549,0.0196078431372549,0.0196078431372549);
ENDSEC;
END-ISO-10303-21;
